ISO-10303-21;
HEADER;
FILE_DESCRIPTION (( 'STEP AP203' ),
    '1' );
FILE_NAME ('Q-ZDWWP-R12-25.4-1064-SHM.STEP',
    '2020-12-22T09:01:16',
    ( '' ),
    ( '' ),
    'SwSTEP 2.0',
    'SolidWorks 2020',
    '' );
FILE_SCHEMA (( 'CONFIG_CONTROL_DESIGN' ));
ENDSEC;

DATA;
#1 = ORIENTED_EDGE ( 'NONE', *, *, #90, .T. ) ;
#2 = CARTESIAN_POINT ( 'NONE',  ( -3.000000000000000000, 0.000000000000000000, 0.000000000000000000 ) ) ;
#3 = LINE ( 'NONE', #15, #63 ) ;
#4 = AXIS2_PLACEMENT_3D ( 'NONE', #121, #122, #54 ) ;
#5 = DIRECTION ( 'NONE',  ( -1.000000000000000000, -0.000000000000000000, -0.000000000000000000 ) ) ;
#6 = CALENDAR_DATE ( 2020, 22, 12 ) ;
#7 = CC_DESIGN_PERSON_AND_ORGANIZATION_ASSIGNMENT ( #158, #146, ( #16 ) ) ;
#8 = SECURITY_CLASSIFICATION ( '', '', #33 ) ;
#9 = CARTESIAN_POINT ( 'NONE',  ( -3.000000000000000000, 0.000000000000000000, 15.00000000000000000 ) ) ;
#10 = AXIS2_PLACEMENT_3D ( 'NONE', #152, #27, #85 ) ;
#11 = APPROVAL ( #46, 'UNSPECIFIED' ) ;
#12 = DIRECTION ( 'NONE',  ( 0.000000000000000000, 0.000000000000000000, 1.000000000000000000 ) ) ;
#13 = PRODUCT ( 'Q-ZDWWP-R12-25.4-1064-SHM', 'Q-ZDWWP-R12-25.4-1064-SHM', '', ( #28 ) ) ;
#14 = CARTESIAN_POINT ( 'NONE',  ( -1.614212418857619014, 0.000000000000000000, 15.00000000000000000 ) ) ;
#15 = CARTESIAN_POINT ( 'NONE',  ( -1.614212418857619014, 1.836970198721029589E-15, -15.00000000000000000 ) ) ;
#16 = PRODUCT_DEFINITION_FORMATION_WITH_SPECIFIED_SOURCE ( 'ANY', '', #13, .NOT_KNOWN. ) ;
#17 = APPROVAL_ROLE ( '' ) ;
#18 = DIRECTION ( 'NONE',  ( 1.000000000000000000, 0.000000000000000000, 0.000000000000000000 ) ) ;
#19 = APPROVAL_DATE_TIME ( #43, #11 ) ;
#20 = PERSON_AND_ORGANIZATION ( #32, #56 ) ;
#21 = CIRCLE ( 'NONE', #10, 15.00000000000000000 ) ;
#22 = DIRECTION ( 'NONE',  ( 0.000000000000000000, 0.000000000000000000, 1.000000000000000000 ) ) ;
#23 = ADVANCED_FACE ( 'NONE', ( #95 ), #175, .T. ) ;
#24 = CLOSED_SHELL ( 'NONE', ( #48, #172, #23, #94 ) ) ;
#25 = DIRECTION ( 'NONE',  ( -1.000000000000000000, -0.000000000000000000, -0.000000000000000000 ) ) ;
#26 = VERTEX_POINT ( 'NONE', #167 ) ;
#27 = DIRECTION ( 'NONE',  ( -1.000000000000000000, -0.000000000000000000, -0.000000000000000000 ) ) ;
#28 = MECHANICAL_CONTEXT ( 'NONE', #154, 'mechanical' ) ;
#29 =( NAMED_UNIT ( * ) PLANE_ANGLE_UNIT ( ) SI_UNIT ( $, .RADIAN. ) );
#30 = CIRCLE ( 'NONE', #119, 15.00000000000000000 ) ;
#31 = PERSON_AND_ORGANIZATION ( #32, #56 ) ;
#32 = PERSON ( 'UNSPECIFIED', 'UNSPECIFIED', 'UNSPECIFIED', ('UNSPECIFIED'), ('UNSPECIFIED'), ('UNSPECIFIED') ) ;
#33 = SECURITY_CLASSIFICATION_LEVEL ( 'unclassified' ) ;
#34 = AXIS2_PLACEMENT_3D ( 'NONE', #87, #88, #18 ) ;
#35 = MANIFOLD_SOLID_BREP ( 'Ðý×', #24 ) ;
#36 = LOCAL_TIME ( 17, 1, 16.00000000000000000, #77 ) ;
#37 = ORIENTED_EDGE ( 'NONE', *, *, #73, .F. ) ;
#38 = DIRECTION ( 'NONE',  ( -1.000000000000000000, -0.000000000000000000, -0.000000000000000000 ) ) ;
#39 = ORIENTED_EDGE ( 'NONE', *, *, #128, .T. ) ;
#40 = EDGE_LOOP ( 'NONE', ( #82, #37 ) ) ;
#41 = CC_DESIGN_PERSON_AND_ORGANIZATION_ASSIGNMENT ( #45, #140, ( #13 ) ) ;
#42 = ORIENTED_EDGE ( 'NONE', *, *, #73, .T. ) ;
#43 = DATE_AND_TIME ( #156, #81 ) ;
#44 = DIRECTION ( 'NONE',  ( -0.000000000000000000, 0.000000000000000000, 1.000000000000000000 ) ) ;
#45 = PERSON_AND_ORGANIZATION ( #32, #56 ) ;
#46 = APPROVAL_STATUS ( 'not_yet_approved' ) ;
#47 = CC_DESIGN_APPROVAL ( #61, ( #74 ) ) ;
#48 = ADVANCED_FACE ( 'NONE', ( #131 ), #132, .T. ) ;
#49 = DATE_TIME_ROLE ( 'classification_date' ) ;
#50 = APPROVAL ( #102, 'UNSPECIFIED' ) ;
#51 = DIRECTION ( 'NONE',  ( -1.000000000000000000, -0.000000000000000000, -0.000000000000000000 ) ) ;
#52 = EDGE_LOOP ( 'NONE', ( #165, #1, #151, #67 ) ) ;
#53 = ORIENTED_EDGE ( 'NONE', *, *, #105, .T. ) ;
#54 = DIRECTION ( 'NONE',  ( 0.000000000000000000, 0.000000000000000000, -1.000000000000000000 ) ) ;
#55 = DIRECTION ( 'NONE',  ( -1.000000000000000000, -0.000000000000000000, -0.000000000000000000 ) ) ;
#56 = ORGANIZATION ( 'UNSPECIFIED', 'UNSPECIFIED', '' ) ;
#57 = DATE_AND_TIME ( #6, #91 ) ;
#58 = EDGE_CURVE ( 'NONE', #118, #162, #150, .T. ) ;
#59 = APPROVAL_PERSON_ORGANIZATION ( #31, #50, #143 ) ;
#60 = PERSON_AND_ORGANIZATION ( #32, #56 ) ;
#61 = APPROVAL ( #126, 'UNSPECIFIED' ) ;
#62 = COORDINATED_UNIVERSAL_TIME_OFFSET ( 8, 0, .AHEAD. ) ;
#63 = VECTOR ( 'NONE', #55, 1000.000000000000000 ) ;
#64 = ORIENTED_EDGE ( 'NONE', *, *, #58, .T. ) ;
#65 = AXIS2_PLACEMENT_3D ( 'NONE', #136, #51, #138 ) ;
#66 = CARTESIAN_POINT ( 'NONE',  ( 3.000000000000000888, 12.69999999999999929, 0.000000000000000000 ) ) ;
#67 = ORIENTED_EDGE ( 'NONE', *, *, #58, .F. ) ;
#68 = EDGE_LOOP ( 'NONE', ( #53, #39 ) ) ;
#69 = CARTESIAN_POINT ( 'NONE',  ( 3.000000000000000000, 0.000000000000000000, 0.000000000000000000 ) ) ;
#70 = PERSON_AND_ORGANIZATION ( #32, #56 ) ;
#71 = CC_DESIGN_APPROVAL ( #11, ( #16 ) ) ;
#72 = PERSON_AND_ORGANIZATION ( #32, #56 ) ;
#73 = EDGE_CURVE ( 'NONE', #111, #118, #174, .T. ) ;
#74 = PRODUCT_DEFINITION ( 'UNKNOWN', '', #16, #117 ) ;
#75 = CALENDAR_DATE ( 2020, 22, 12 ) ;
#76 = CC_DESIGN_DATE_AND_TIME_ASSIGNMENT ( #145, #49, ( #8 ) ) ;
#77 = COORDINATED_UNIVERSAL_TIME_OFFSET ( 8, 0, .AHEAD. ) ;
#78 = CIRCLE ( 'NONE', #144, 15.00000000000000000 ) ;
#79 = UNCERTAINTY_MEASURE_WITH_UNIT (LENGTH_MEASURE( 1.000000000000000082E-05 ), #153, 'distance_accuracy_value', 'NONE');
#80 = ORIENTED_EDGE ( 'NONE', *, *, #90, .F. ) ;
#81 = LOCAL_TIME ( 17, 1, 16.00000000000000000, #100 ) ;
#82 = ORIENTED_EDGE ( 'NONE', *, *, #135, .F. ) ;
#83 = CC_DESIGN_PERSON_AND_ORGANIZATION_ASSIGNMENT ( #60, #157, ( #8 ) ) ;
#84 = DIRECTION ( 'NONE',  ( 0.000000000000000000, 0.000000000000000000, 1.000000000000000000 ) ) ;
#85 = DIRECTION ( 'NONE',  ( 0.000000000000000000, 0.000000000000000000, 1.000000000000000000 ) ) ;
#86 =( GEOMETRIC_REPRESENTATION_CONTEXT ( 3 ) GLOBAL_UNCERTAINTY_ASSIGNED_CONTEXT ( ( #79 ) ) GLOBAL_UNIT_ASSIGNED_CONTEXT ( ( #153, #29, #168 ) ) REPRESENTATION_CONTEXT ( 'NONE', 'WORKASPACE' ) );
#87 = CARTESIAN_POINT ( 'NONE',  ( 0.000000000000000000, 0.000000000000000000, 0.000000000000000000 ) ) ;
#88 = DIRECTION ( 'NONE',  ( 0.000000000000000000, 0.000000000000000000, 1.000000000000000000 ) ) ;
#89 = APPLICATION_PROTOCOL_DEFINITION ( 'international standard', 'config_control_design', 1994, #108 ) ;
#90 = EDGE_CURVE ( 'NONE', #111, #26, #3, .T. ) ;
#91 = LOCAL_TIME ( 17, 1, 16.00000000000000000, #112 ) ;
#92 = DIRECTION ( 'NONE',  ( -1.000000000000000000, -0.000000000000000000, -0.000000000000000000 ) ) ;
#93 = CARTESIAN_POINT ( 'NONE',  ( -1.614212418857619014, 0.000000000000000000, 0.000000000000000000 ) ) ;
#94 = ADVANCED_FACE ( 'NONE', ( #107 ), #97, .F. ) ;
#95 = FACE_OUTER_BOUND ( 'NONE', #120, .T. ) ;
#96 = ORIENTED_EDGE ( 'NONE', *, *, #128, .F. ) ;
#97 = PLANE ( 'NONE',  #4 ) ;
#98 = DIRECTION ( 'NONE',  ( -1.000000000000000000, 0.000000000000000000, -0.000000000000000000 ) ) ;
#99 = APPROVAL_DATE_TIME ( #57, #61 ) ;
#100 = COORDINATED_UNIVERSAL_TIME_OFFSET ( 8, 0, .AHEAD. ) ;
#101 = CC_DESIGN_PERSON_AND_ORGANIZATION_ASSIGNMENT ( #20, #129, ( #16 ) ) ;
#102 = APPROVAL_STATUS ( 'not_yet_approved' ) ;
#103 = DATE_AND_TIME ( #130, #104 ) ;
#104 = LOCAL_TIME ( 17, 1, 16.00000000000000000, #62 ) ;
#105 = EDGE_CURVE ( 'NONE', #162, #26, #30, .T. ) ;
#106 = ADVANCED_BREP_SHAPE_REPRESENTATION ( 'Q-ZDWWP-R12-25.4-1064-SHM', ( #35, #34 ), #86 ) ;
#107 = FACE_OUTER_BOUND ( 'NONE', #68, .T. ) ;
#108 = APPLICATION_CONTEXT ( 'configuration controlled 3d designs of mechanical parts and assemblies' ) ;
#109 = DIRECTION ( 'NONE',  ( 0.000000000000000000, 0.000000000000000000, 1.000000000000000000 ) ) ;
#110 = CC_DESIGN_APPROVAL ( #50, ( #8 ) ) ;
#111 = VERTEX_POINT ( 'NONE', #166 ) ;
#112 = COORDINATED_UNIVERSAL_TIME_OFFSET ( 8, 0, .AHEAD. ) ;
#113 = CALENDAR_DATE ( 2020, 22, 12 ) ;
#114 = AXIS2_PLACEMENT_3D ( 'NONE', #93, #38, #84 ) ;
#115 = APPROVAL_DATE_TIME ( #103, #50 ) ;
#116 = APPROVAL_PERSON_ORGANIZATION ( #125, #11, #169 ) ;
#117 = DESIGN_CONTEXT ( 'detailed design', #108, 'design' ) ;
#118 = VERTEX_POINT ( 'NONE', #124 ) ;
#119 = AXIS2_PLACEMENT_3D ( 'NONE', #2, #148, #109 ) ;
#120 = EDGE_LOOP ( 'NONE', ( #80, #42, #64, #96 ) ) ;
#121 = CARTESIAN_POINT ( 'NONE',  ( -3.000000000000000888, 12.69999999999999929, 0.000000000000000000 ) ) ;
#122 = DIRECTION ( 'NONE',  ( 1.000000000000000000, 0.000000000000000000, 0.000000000000000000 ) ) ;
#123 = APPROVAL_PERSON_ORGANIZATION ( #70, #61, #17 ) ;
#124 = CARTESIAN_POINT ( 'NONE',  ( 3.000000000000000000, 0.000000000000000000, 15.00000000000000000 ) ) ;
#125 = PERSON_AND_ORGANIZATION ( #32, #56 ) ;
#126 = APPROVAL_STATUS ( 'not_yet_approved' ) ;
#127 = COORDINATED_UNIVERSAL_TIME_OFFSET ( 8, 0, .AHEAD. ) ;
#128 = EDGE_CURVE ( 'NONE', #26, #162, #21, .T. ) ;
#129 = PERSON_AND_ORGANIZATION_ROLE ( 'design_supplier' ) ;
#130 = CALENDAR_DATE ( 2020, 22, 12 ) ;
#131 = FACE_OUTER_BOUND ( 'NONE', #52, .T. ) ;
#132 = CYLINDRICAL_SURFACE ( 'NONE', #65, 15.00000000000000000 ) ;
#133 = VECTOR ( 'NONE', #25, 1000.000000000000000 ) ;
#134 = CARTESIAN_POINT ( 'NONE',  ( 3.000000000000000000, 0.000000000000000000, 0.000000000000000000 ) ) ;
#135 = EDGE_CURVE ( 'NONE', #118, #111, #78, .T. ) ;
#136 = CARTESIAN_POINT ( 'NONE',  ( -1.614212418857619014, 0.000000000000000000, 0.000000000000000000 ) ) ;
#137 = CC_DESIGN_DATE_AND_TIME_ASSIGNMENT ( #171, #155, ( #74 ) ) ;
#138 = DIRECTION ( 'NONE',  ( 0.000000000000000000, 0.000000000000000000, 1.000000000000000000 ) ) ;
#139 = LOCAL_TIME ( 17, 1, 16.00000000000000000, #127 ) ;
#140 = PERSON_AND_ORGANIZATION_ROLE ( 'design_owner' ) ;
#141 = AXIS2_PLACEMENT_3D ( 'NONE', #134, #92, #12 ) ;
#142 = PERSON_AND_ORGANIZATION_ROLE ( 'creator' ) ;
#143 = APPROVAL_ROLE ( '' ) ;
#144 = AXIS2_PLACEMENT_3D ( 'NONE', #69, #5, #22 ) ;
#145 = DATE_AND_TIME ( #75, #36 ) ;
#146 = PERSON_AND_ORGANIZATION_ROLE ( 'creator' ) ;
#147 = CC_DESIGN_PERSON_AND_ORGANIZATION_ASSIGNMENT ( #72, #142, ( #74 ) ) ;
#148 = DIRECTION ( 'NONE',  ( -1.000000000000000000, -0.000000000000000000, -0.000000000000000000 ) ) ;
#149 = PLANE ( 'NONE',  #173 ) ;
#150 = LINE ( 'NONE', #14, #133 ) ;
#151 = ORIENTED_EDGE ( 'NONE', *, *, #105, .F. ) ;
#152 = CARTESIAN_POINT ( 'NONE',  ( -3.000000000000000000, 0.000000000000000000, 0.000000000000000000 ) ) ;
#153 =( LENGTH_UNIT ( ) NAMED_UNIT ( * ) SI_UNIT ( .MILLI., .METRE. ) );
#154 = APPLICATION_CONTEXT ( 'configuration controlled 3d designs of mechanical parts and assemblies' ) ;
#155 = DATE_TIME_ROLE ( 'creation_date' ) ;
#156 = CALENDAR_DATE ( 2020, 22, 12 ) ;
#157 = PERSON_AND_ORGANIZATION_ROLE ( 'classification_officer' ) ;
#158 = PERSON_AND_ORGANIZATION ( #32, #56 ) ;
#159 = PRODUCT_RELATED_PRODUCT_CATEGORY ( 'detail', '', ( #13 ) ) ;
#160 = SHAPE_DEFINITION_REPRESENTATION ( #164, #106 ) ;
#161 = CC_DESIGN_SECURITY_CLASSIFICATION ( #8, ( #16 ) ) ;
#162 = VERTEX_POINT ( 'NONE', #9 ) ;
#163 = FACE_OUTER_BOUND ( 'NONE', #40, .T. ) ;
#164 = PRODUCT_DEFINITION_SHAPE ( 'NONE', 'NONE',  #74 ) ;
#165 = ORIENTED_EDGE ( 'NONE', *, *, #135, .T. ) ;
#166 = CARTESIAN_POINT ( 'NONE',  ( 3.000000000000000000, 1.836970198721029589E-15, -15.00000000000000000 ) ) ;
#167 = CARTESIAN_POINT ( 'NONE',  ( -3.000000000000000000, 1.836970198721029589E-15, -15.00000000000000000 ) ) ;
#168 =( NAMED_UNIT ( * ) SI_UNIT ( $, .STERADIAN. ) SOLID_ANGLE_UNIT ( ) );
#169 = APPROVAL_ROLE ( '' ) ;
#170 = APPLICATION_PROTOCOL_DEFINITION ( 'international standard', 'config_control_design', 1994, #154 ) ;
#171 = DATE_AND_TIME ( #113, #139 ) ;
#172 = ADVANCED_FACE ( 'NONE', ( #163 ), #149, .F. ) ;
#173 = AXIS2_PLACEMENT_3D ( 'NONE', #66, #98, #44 ) ;
#174 = CIRCLE ( 'NONE', #141, 15.00000000000000000 ) ;
#175 = CYLINDRICAL_SURFACE ( 'NONE', #114, 15.00000000000000000 ) ;
ENDSEC;
END-ISO-10303-21;
